A.C.A.B - Racial Hatred 1 Guitar Chords

Chords: A, F, E, C, G, B, D
Time Signature: 4/4  Key Signature: C

[Fig 1]

               A              F   F     E   C
e|-----------------------|-----------------------|
B|-----------------------|-----------------------|
G|-----------------------|------------------5----|
D|------7---7----7---7---|---3----3-----2---5----|
A|------7---7----7---7---|---3----3-----2---3----|
E|------5---5----5---5 --|---1----1-----0--------|

[Fig 2]

          G                       B                       C                 D
e|-----------------------|--------------------|-------------------|------------------|
B|-----------------------|--------------------|-------------------|------------------|
G|-----------------------|---4---4----4---4---|--5----5---5--5----|--7----7----7--7--|
D|---5---5----5----5-----|---4---4----4---4---|--5----5---5--5----|--7----7----7--7--|
A|---5---5----5----5-----|---2---2----2---2---|--3----3---3--3----|--5----5----5--5--|
E|---3---3----3----3-----|--------------------|-------------------|------------------|


[Verse]

A             F   E    C
Racial hatred everywhere
A                         F     E    C
Lives are threatened and live in fear
A                   F   E   C
Some people just don't care
A                    F    E  C
See destruction and despair

[Verse]

A                         F   E    C
Don't you know you're just the same
A                      F   E    C
You're living in the same game
A                            F   E  C
There's nothing to judge by the color
A                            F   E    C
And nothing to win by hating each other

[Chorus]

G            B    C         D
So yellow brown black and white
G           B           C        D
Stop racial hatred and start to unite     Unite!

More chords by A.C.A.B: